Bjork - Anchor Song (var.2) Tablature guitare télécharger gratuitement ou jouer en ligne

Tablature guitare pour Anchor Song (var.2) de Bjork télécharger gratuitement et lire ou jouer en ligne: fichier .txt, 3.9 kb a 154 vues et 0 téléchargements.

Télécharger tablature guitare "Anchor Song (var.2)" (Bjork)

Bjork Nom du groupe
Anchor Song Nom de la chanson
Tablatures guitare Type de partition
3.9 kb Taille du fichier
.TXT Type de fichier
154 vues
0 téléchargements
 
Es-tu un robot?

Anchor Song (var.2) tablature guitare lire et jouer en ligne

                    Introduзгo: 

E----5-------0----1------------5-------------------------- 
B--------3--------1----------------3----6----3------------ 
G------------2--------0-----------------0----0---4-------- 
D---------------------------------------7----3---3-------- 
A------------------------------------------------5-------- 
E--------------------------------------------------------- 

                                               
---5---------0----1-----------3--------------7------------ 
---8----3----1----3-----------5---------3----5------------ 
--------4---------5-----------4--------------------------- 
---------------------------------------------------------- 
---------------------------------------------3------------ 
---------------------------------------------------------- 
                                            ^^ 
Verso:
\"I live by the ocean...\" 
---------13---12---10----------------------------------------------- 
--------------------------13--------10---12---13-------------10----- 
-------------------------------------0-------------12--------------- 
---------10--------------------------------------------------12----- 
-------------------------------------0------------------------------ 
---------10--------------------------------------------------12----- 
                                    ^^^^^^^^^^^^^^^^^        ^^ 
                                                   ^^ 
\"and during the night\" 
---------13--12--10----------------------5--------------------5----- 
-----------------------13----------6--8-----------5---6-------0----- 
-----------------------------------------------7--------------5----- 
---------10----------------------7-------------5-------------------- 
---------------------------------5---------------------------------- 
---------10--------------------------------------------------------- 
         ^^^^^^^^^^^^^^^^^^^^^^^^^ 

\"...underneath all currents...\" 
------------8-----7-----5------------------------------- 
------------------8-----3------------------------------- 
------------9-----0------------------------------------- 
------------7-----------3------------------------------- 
-------------------------------------------------------- 
-------------------------------------------------------- 

\"and this is where I'm staying. this is my home.\"  (Esta parte й totalmente Acapella) 
-------------------------------------------------------- 
-------------------------------------------------------- 
-------------------------------------------------------- 
-------------------------------------------------------- 
-------------------------------------------------------- 
-------------------------------------------------------- 

Quando terminar o refrгo, termine a mъsica tocando a introduзгo 3 vezes

_______________________________________________________
Contribuiзгo: Rфmulo S. de Britto Macкdo Filho(romulohp@bol.com.br)"
var fontTamanho = '12px'

function alteraFonte()
{
fontTamanho = (fontTamanho == '12px' ? '16px' : '12px'); 
document.getElementById("spCifra").style.font = fontTamanho
}
function montaEscala(pAcorde){
	window.open('escalas.html?acorde=' + pAcorde,'escala', 'width=650, height=150, toolbars=no, statusbar=no, location=no')
}





.smalltext{font-size: 8pt}
.nota {font-size: 7pt; color:black; background-color:white}
.border {border: 1px solid #3F6A82}
sda {font-family: arial; font-size: 10pt; color: blue}
.b {font-family: arial; font-size: 10pt}
.db {color: darkblue; font-weight:bold; cursor:hand}
pre {font-family:;font-size:10pt;} 



   
     
    
      
  




  
  Bjork 
  The Anchor Song
  










 





 




   
    
         
            
            
            Print 
		  
            
            Send toe-amail


           
		   
		  
            Add toSongbook 

			
           
            


          more Bjork, The Anchor Song tabs at GoogleTabs
        
		

	
		Songbook                    

Commentaires pour tablature guitare — Anchor Song (var.2) (Bjork)

Autres partitions pour Anchor Song (var.2) de Bjork:

Dernières vues des partitions de Bjork: